Steve Kimock Discussion :: View topic - Malichi Guitar Tab
Steve Kimock Discussion Forum Index

Steve Kimock Discussion
The Official Steve Kimock Discussion Group

www.Kimock.com

Buy Steve Kimock's New CD


 
 FAQFAQ   SearchSearch   MemberlistMemberlist   UsergroupsUsergroups   RegisterRegister 
 ProfileProfile   Log in to check your private messagesLog in to check your private messages   Log inLog in 
Chat Users Currently Chatting

 
Malichi Guitar Tab

 
Post new topic   Reply to topic    Steve Kimock Discussion Forum Index -> Steve's music
View previous topic :: View next topic  
Author Message
esteban



Joined: 28 Aug 2009
Posts: 42
Location: Lehigh Valley Area

PostPosted: Sat Jun 05, 2010 3:56 am    Post subject: Malichi Guitar Tab Reply with quote

Code:
-------------------------------------------------------------------------------
              Malichi - SKB
-------------------------------------------------------------------------------
Tabbed by: Esteban Colon   
Email: Estebancolon@hotmail.com

Tuning: Standard


Intro

Guitar 1 Rhythm Fig.1                      Guitar 2 Rhythm Fig.2

e|---(0)-----(0)(0)-------------||--------------0--0-0-0--0-0---------------||     5/4 timing
B|----5--5----5--5--------------||--------------5--5-5-5--5-5---------------||
G|----2--2p0--4--2--------------||--------------4--4-4-4--4-4---------------||
D|------------------------------||------------------------------------------||
A|------------------------------||------------------------------------------||
E|------------------------------||------------------------------------------|| Repeat guitars 1 and 2 figures
 
Riff part #1 = (A harmonic Minor) over Rhtyhm Fig.2

e|------------------------------5---------4-|
B|------5--------6--------------------------|
G|------------------------------------------|
D|------------------------------------------|
A|------------------------------------------|
E|------------------------------------------| Repeat 4x'

Riff part #2

e|------------------------------|
B|---5--5--5------5--5--5-------|
G|---4--2--0------4--2--0---/6--|
D|------------------------------|
A|------------------------------|
E|------------------------------| Repeat 4x's


Bridge

       A                             E
e|-------------------------------------------------------|     4/4 timing
B|-----10----------------------------9-----9-9--9-9-9----|
G|-----9-------------9--------9------9-----9-9--9-9-9----|
D|-----9h11----------11p9-----9h11---9-----9-9--9-9-9----|
A|------------------------12-----------------------------|
E|-------------------------------------------------------|

      G                              D
e|-------------------------------------------------------|
B|----3-------3----3--3-3-3---3---------------------7--7-|
G|----4p2-----2----2--2-2-2---2-----------7----7-7--7--7-|
D|--------5--------5--5-5-5---5-----------7----7-7--9--7-|
A|-----------------------------------7-7--7h9------------|
E|-------------------------------------------------------|

Repeat all sections as needed,,,

Jam Chords


       Em7 to something that sounds like an A.. i dont know what it is.. but the C# is present,,,, Emin6   ?????????????? you tell me...
   
   


************************************

| /   slide up
| \   slide down
| h   hammer-on
| p   pull-off
| ~   vibrato
| +   harmonic
| x   Mute note
| b   Bend
| pb  Pre-bend
| br  Bend release
| pbr Pre-bend release
| brb Bend release bend

************************************


Last edited by esteban on Sun Jun 06, 2010 3:45 am; edited 1 time in total
Back to top
View user's profile Send private message Send e-mail Visit poster's website
esteban



Joined: 28 Aug 2009
Posts: 42
Location: Lehigh Valley Area

PostPosted: Sat Jun 05, 2010 4:36 am    Post subject: Reply with quote

im thinking it may be a emin7 to c#m7B5

???
Back to top
View user's profile Send private message Send e-mail Visit poster's website
Display posts from previous:   
Post new topic   Reply to topic    Steve Kimock Discussion Forum Index -> Steve's music All times are GMT
Page 1 of 1

 
Jump to:  
You cannot post new topics in this forum
You cannot reply to topics in this forum
You cannot edit your posts in this forum
You cannot delete your posts in this forum
You cannot vote in polls in this forum



Powered by phpBB 2001, 2002 phpBB Group